Chocante

Ver o tópico anterior Ver o tópico seguinte Ir em baixo

Chocante

Mensagem por Brainiac em Qua Jan 01, 2014 2:18 pm

[Você precisa estar registrado e conectado para ver esta imagem.]
avatar
Brainiac
Farrista ninguém me alcança
Farrista ninguém me alcança

Mensagens : 15556
Data de inscrição : 29/11/2010
Idade : 28
Localização : Planeta Colu

Voltar ao Topo Ir em baixo

Re: Chocante

Mensagem por Quero Café em Qua Jan 01, 2014 5:37 pm

Fico pensando em como você está
Como se algo sussurrasse em meus ouvidos
Mas não há som algum além do mar

Em quem eu posso acreditar?
Eu estou de joelhos no chão
Será que é uma “força”
Que me diz pra quem telefonar?

As estrelas estão brilhando la fora
Mas o que queria mesmo saber

Eu quero que você me mostre o caminho, todos os dias.
Eu quero você. Me mostre o caminho.

Mas eu não vejo razão
Pra você viver tão nervosa
Quando um copo é derrubado e eu fico submergido

Estou nadando em círculos
Sinto que vou cair
Tenho que ser mesmo um tolo pra jogar meu jogo

Alguns pensam em curar-se
Mas o que queria mesmo saber

Eu quero que você me mostre o caminho, todos os dias.
Eu quero você. Me mostre o caminho.
Eu quero você dia após dia

Imagino se sonharei
Me sinto tão desinibido
Não acredito que isso está acontecendo comigo

Fico te observando adormecida
E então eu quero ter o seu amor

Eu quero que você me mostre o caminho, todos os dias.
Eu quero você me mostre o caminho, mais uma vez

(2x)
Eu quero você dia após dia

Eu quero que você me mostre o caminho, todos os dias
Eu quero você me mostre o caminho, noite e dia
Eu quero você dia após dia


Alguém fica aos pedaços
dormindo completamente só
Alguém acaba com o sofrimento
prolongando o silêncio
Ela finalmente se afasta

Alguém fica excitado
em uma capela de jardim
Apanhando um buquê
Outros colocam uma dúzia
de rosas brancas sobre um túmulo
Yeah

[Refrão]
E ser você mesmo é tudo que você pode fazer
Ei
Ser você mesmo é tudo que você pode fazer...

Alguém encontra uma salvação em cada um
Outros, apenas sofrimento
Alguém tenta esconder a si mesmo
Triste, dentro dele mesmo, faz uma prece

Alguém jura amar de verdade
Até o fim
Outros, fogem
Separados ou juntos
Saudáveis ou insanos

[Refrão]
E ser você é tudo que você pode fazer
Tudo o que você pode fazer
Ser você mesmo é tudo o que você pode fazer
Tudo o que você pode fazer
Ser você mesmo é tudo o que você pode fazer
Tudo o que você pode fazer
Seja você mesmo, é tudo o que você pode fazer..

Até quando você pagou o suficiente
foi oprimido ou atrapalhado
fica a lembrança do bem e do mal
Rostos sortudos
Não perca o sono essa noite
tenho certeza que tudo terminará bem
Você pode vencer ou perder..

[Refrão]
Mas ser você é tudo que você pode fazer
É
Ser você mesmo é tudo o que você pode fazer
Oh
Ser você mesmo é tudo o que você pode fazer
Tudo o que você pode fazer
Ser você mesmo é tudo o que você pode fazer
Tudo o que você pode fazer
Ser você mesmo é tudo o que você pode..
Seja você mesmo é tudo o que você pode..
Seja você mesmo é tudo o que você pode fazer..
avatar
Quero Café
Farrista "We are the Champions"
Farrista

Mensagens : 7814
Data de inscrição : 12/06/2010
Localização : Às vezes em Marte, às vezes no espaço sideral

Voltar ao Topo Ir em baixo

Re: Chocante

Mensagem por Quero Café em Qua Jan 01, 2014 5:38 pm


Em7 G Em7 G Em7
E|-----------3-|--------3-|------------3-|---------3-|-----------3--|
B|-----------3-|--------3-|------------3-|---------3-|-----------3--|
G|-----------0-|-0------0-|------------0-|---0-----0-|-----------0--|
D|-----0--2--2-|---2-0--0-|-------0-2--2-|-2---2-0-0-|-------0-2-2--|
A|-0h2-------2-|--------2-|---0h2------2-|---------2-|---0h2-----2--|
E|-------------|----------|-3------------|-----------|-3------------|

(riff 1) (riff 2) (riff 3) (riff 4) (riff 3)


A7(4) Em7 A7(4) G
E|----------3-|---------3-|---------3-|---------3-----------------|
B|----------3-|---------3-|---------3-|---------3-----------------|
G|----------2-|---------0-|---------2-|---------0-----------------|
D|-2-0------2-|-----0-2-2-|-2-0-----2-|-----0---0-----------------|
A|-----2-0--0-|-0h2-----2-|-----2-0-0-|-0h2-----2-----------------|
E|------------|-----------|-----------|---------3-----------------|

(riff 5) (riff 1) (riff 5) (riff 6)

(solo 1)

(parte 1)

E|--------------------------------3/5-5/3------------|
B|-------3--5---3-----------------3/5-5/3-3/5-5/3p0--|
G|-2h3/4------4---4p2p0-------------------2/4-4/2p0--|
D|----------------------0-----0-0--------------------|
A|------------------------1/2------------------------|
E|---------------------------------------------------|



E|---------------------------------------------------|
B|-3/5-5/3p0-----------------------------------------|
G|-2/4-4/2p0--4--------------------------------------|
D|------------5--------------------------------------|
A|---------------------------------------------------|
E|---------------------------------------------------|


(parte 2)

E|---------------------------------------------------|
B|-------3---5-5b7r5p3---3--------3h5----------------|
G|-2h3/4---4-----------4---2~-4b6-----4b6-2~---------|
D|---------------------------------------------------|
A|---------------------------------------------------|
E|---------------------------------------------------|


(parte 3)

E|---------------------------------------------------|
B|-------3---5-5b7-7r5p3-5---------------------------|
G|-2h3/4-------------------2~-4b6r4p2----------------|
D|---------------------------------------------------|
A|---------------------------------------------------|
E|---------------------------------------------------|


(1ª parte)

C D/F#
So, so you think you can tell
Am/E G D/F#
Heaven from hell, Blue skies from pain. Can you tell a green field
C Am G
From a cold steel rail, A smile from a veil? Do you think you can tell?
C D/F# Am/E
Did they get you to trade, Your heroes for ghosts, Hot ashes for trees,
G D/F# C
Hot air for a cool breeze, Cold comfort for change? Did you exchange
Am G
A walk on part in the war, For a lead role in a cage?
avatar
Quero Café
Farrista "We are the Champions"
Farrista

Mensagens : 7814
Data de inscrição : 12/06/2010
Localização : Às vezes em Marte, às vezes no espaço sideral

Voltar ao Topo Ir em baixo

Re: Chocante

Mensagem por Conteúdo patrocinado


Conteúdo patrocinado


Voltar ao Topo Ir em baixo

Ver o tópico anterior Ver o tópico seguinte Voltar ao Topo

- Tópicos similares

 
Permissão deste fórum:
Você não pode responder aos tópicos neste fórum